Guitar Tabs - Learn to Play

  • Odgovora: 1
*

Van mreže Bojan-

  • ***
  • 1 773
  • 45
  • Pol: Muško
Guitar Tabs - Learn to Play
« poslato: 16:34:56, 08.Nov.2014. »
Tablature za Gitaru - Nauči da sviraš

GITARA:

Gitara uglavnom ima šest žica (ima i sa 7 i 8 i 12 žica ali ignorišite to, za sada).

Prvo što treba da naučite jesu imena svih šest žica na gitari.

Prva žica je ona na vrhu, i zove se E - žica, zato što daje notu E (bez dodirivanja pragova, samo desnom rukom udarite praznu žicu) i ona je najdeblja žica.

Druga žica je A - žica jer daje notu A

Treća žica je D - žica

Četvrta žica je G - žica

Peta žica je H - žica ili B, da ne bude zabune, u nekim zemljama kao kod nas je H u drugim je zovu B.

Šesta žica je E - žica i ona je najtanja od svih žica.

I prva i šesta žica daju isti ton - E.

Kako se čita gitarska tablatura

Prva stvar koju primetite na tablaturi su šest linija, i one označavaju raspored svih šest žica na gitari i to izgleda ovako:

E-------------------------
H-------------------------
G-------------------------
D-------------------------
A-------------------------
E------------------------- ↑ ↑ ↑ ↑  Napomena: Tablatura se čita odozdo na gore (vidi strelice).


Sledeće što se vidi na tablaturi, jesu brojevi. Svaki broj označava prag na gitari. Na primer: Broj 1 prvi prag, broj 2 drugi prag, itd. Nula, 0 je prazna žica (otvoreno, bez dodirivanja pragova).


Na primer:

E-------2-------------------
H-----3---3-----------------
G----2------2---------------
D---0------------------------
A-----------------------------
E-----------------------------

Napomna: Tablatura se čita s desna na levo, tako da ova tablatura znači sledeće:
Prvo što svirate je D, prazno, otvoreno, bez dodirivanja pragova. Onda G žica na drugom pragu, onda H žica na trećem pragu, onda E žica na drugom pragu. Vidi sliku ispod



Drugi primer: 

E----0----------------
H----0----------------
G----1----------------  ↑
D----2----------------  ↑
A----2----------------- ↑
E----0----------------- ↑

Na ovom primeru vidite da su brojevi jedan ispod drugog, što znači da svirate jedan udar na svih šest žica istovremeno, znači desnom rukom udar od najdeblje ka najtanjoj žici, kao sito (vidi strelice).


Držanje i položaj prstiju leve ruke: (pritisni i drži) srednji prst na A žici drugi prag, domali prst na D žici drugi prag, kažiprst na G žici prvi prag. Kada namestite prste leve ruke, onda desnom rukom udar na SVIH ŠEST ŽICA i dobijamo E dur.

E dur



C dur

E-------------------------0--
H--------------------1-------
G---------------0------------
D----------2-----------------
A----3-----------------------
E----------------------------



D dur

E------------2--------------
H---------3-----------------
G------2--------------------
D---0-----------------------
A----------------------------
E----------------------------




Nirvana - Come As You Are

E------------------------------------------------------|---------------------------------------------|
H------------------------------------------------------|---------------------------------------------|
G------------------------------------------------------|---------------------------------------------|
D------------------------------------------------------|---------------------------------------------|
A--------------------0-----0---------------2-------2-|-------------0----0--------------2------2- |
E----0--0--1--2-------2----2--2--1--0----0--0----|--0--1--2-----2---2--2--1--0---0--0----|

Za početak, Nirvana - Come As You Are uvodna melodija Ovo je uvodna i glavna tema pesme Come As you Are, koja je relativno laka za početak.

Forumaši ROKAJTE


















 


*

Van mreže Bojan-

  • ***
  • 1 773
  • 45
  • Pol: Muško
Odg: Guitar Tabs - Learn to Play
« Odgovor #1 poslato: 00:28:26, 20.Dec.2014. »
Vežbanje:

                                                                 1 x
E |-----------------------------------------------------------------------------------------------------------2--1--3--2--4--3--------
H |--------------------------------------------------------------------------------------2--1--3--2--4--3-----------------------------
G |-----------------------------------------------------------------2--1--3--2--4--3--------------------------------------------------
D |--------------------------------------------2--1--3--2--4--3-----------------------------------------------------------------------
A |-----------------------2--1--3--2--4--3---------------------------------------------------------------------------------------------
E |--2--1--3--2--4--3------------------------------------------------------------------------------------------------------------------

                                                                  2 x
E --3--4--2--3--1--2-----------------------------------------------------------------------------------------------------------------
H ------------------------3--4--2--3--1--2-------------------------------------------------------------------------------------------
G ---------------------------------------------3--4--2--3--1--2----------------------------------------------------------------------
D ------------------------------------------------------------------3--4--2--3--1--2--------------------------------------------- 2--
A ----------------------------------------------------------------------------------------3--4--2--3--1--2------------------------2--
E -------------------------------------------------------------------------------------------------------------3--4--2--3--1--2---0--

Namenjeno za vežbanje i leve i desne ruke (desnom rukom gore-dole, piking). Takodje ova vežba je idealna za mozak i razmišljanje. Poenta je da se vežba odsvira što brže ali da svaki ton bude tačan. Naravno počinje se polako, pa se vremenom ubrzava tempo.

 





 

Brzi odgovor Vam omogućava da pošaljete poruku bez učitavanja nove stranice.

Upozorenje: u ovoj temi nije pisano već više od 365 dana.
Ukoliko niste sigurni da želite da odgovorite, razmislite o pokretanju nove teme.


Maksimum znakova 20000; preostalih znakova: 20000